  0
SECTION
  2
ENTITIES
  0
POLYLINE
  8
0
 66
     1
 10
0.0
 20
0.0
 30
0.0
  0
VERTEX
  8
0
 10
-9.321 
 20
 54.2314 
 30
 0 
  0
VERTEX
  8
0
 10
-7.574 
 20
 33.2709 
 30
 3 
  0
VERTEX
  8
0
 10
-.01 
 20
 8.904 
 30
 24 
  0
VERTEX
  8
0
 10
 .01 
 20
 8.904 
 30
 24 
  0
VERTEX
  8
0
 10
 7.574 
 20
 33.2709 
 30
 3 
  0
VERTEX
  8
0
 10
 9.321 
 20
 54.2314 
 30
 0 
  0
SEQEND
  0
POLYLINE
  8
0
 66
     1
 10
0.0
 20
0.0
 30
0.0
  0
VERTEX
  8
0
 10
-45.619 
 20
 40.36176 
 30
 96 
  0
VERTEX
  8
0
 10
-43.647 
 20
 16.694 
 30
 96 
  0
VERTEX
  8
0
 10
-27.672 
 20
 .72 
 30
 96 
  0
VERTEX
  8
0
 10
 27.672 
 20
 .72 
 30
 96 
  0
VERTEX
  8
0
 10
 43.647 
 20
 16.694 
 30
 96 
  0
VERTEX
  8
0
 10
 45.619 
 20
 40.36176 
 30
 96 
  0
SEQEND
  0
POLYLINE
  8
0
 66
     1
 10
0.0
 20
0.0
 30
0.0
  0
VERTEX
  8
0
 10
-49.262 
 20
 36.383 
 30
 192 
  0
VERTEX
  8
0
 10
-47.262 
 20
 12.3863 
 30
 192 
  0
VERTEX
  8
0
 10
-35.063 
 20
 .1872 
 30
 192 
  0
VERTEX
  8
0
 10
 35.063 
 20
 .1872 
 30
 192 
  0
VERTEX
  8
0
 10
 47.262 
 20
 12.3863 
 30
 192 
  0
VERTEX
  8
0
 10
 49.262 
 20
 36.383 
 30
 192 
  0
SEQEND
  0
POLYLINE
  8
0
 66
     1
 10
0.0
 20
0.0
 30
0.0
  0
VERTEX
  8
0
 10
-44.219 
 20
 38.19744 
 30
 336 
  0
VERTEX
  8
0
 10
-42.305 
 20
 15.2225 
 30
 336 
  0
VERTEX
  8
0
 10
-36.053 
 20
 8.9712 
 30
 336 
  0
VERTEX
  8
0
 10
 36.053 
 20
 8.9712 
 30
 336 
  0
VERTEX
  8
0
 10
 42.305 
 20
 15.2225 
 30
 336 
  0
VERTEX
  8
0
 10
 44.219 
 20
 38.19744 
 30
 336 
  0
SEQEND
  0
POLYLINE
  8
0
 66
     1
 10
0.0
 20
0.0
 30
0.0
  0
VERTEX
  8
0
 10
-36 
 20
 41.6976 
 30
 384 
  0
VERTEX
  8
0
 10
-34.1 
 20
 18.91942 
 30
 384 
  0
VERTEX
  8
0
 10
-30 
 20
 14.8176 
 30
 384 
  0
VERTEX
  8
0
 10
 30 
 20
 14.8176 
 30
 384 
  0
VERTEX
  8
0
 10
 34.1 
 20
 18.91942 
 30
 384 
  0
VERTEX
  8
0
 10
 36 
 20
 41.6976 
 30
 384 
  0
SEQEND
  0
POLYLINE
  8
0
 66
     1
 10
0.0
 20
0.0
 30
0.0
  0
VERTEX
  8
0
 10
-.01 
 20
 8.904 
 30
 24 
  0
VERTEX
  8
0
 10
-10.75241310823 
 20
 5.68304787185153 
 30
 48.1 
  0
VERTEX
  8
0
 10
-20.3718686763237 
 20
 2.82668158771547 
 30
 72.2 
  0
VERTEX
  8
0
 10
-27.672 
 20
 .72 
 30
 96 
  0
VERTEX
  8
0
 10
-32.9687534557023 
 20
-.614320359834299 
 30
 128.1 
  0
VERTEX
  8
0
 10
-34.6540136377216 
 20
-.595705969803428 
 30
 160.2 
  0
VERTEX
  8
0
 10
-35.063 
 20
 .1872 
 30
 192 
  0
VERTEX
  8
0
 10
-36.6136801253379 
 20
 1.97349192203549 
 30
 240.1 
  0
VERTEX
  8
0
 10
-37.8302683651213 
 20
 4.73612649384662 
 30
 288.2 
  0
VERTEX
  8
0
 10
-36.053 
 20
 8.9712 
 30
 336 
  0
VERTEX
  8
0
 10
-34.3730936774419 
 20
 10.8071623278525 
 30
 352.1 
  0
VERTEX
  8
0
 10
-32.2695851585022 
 20
 12.7942724295404 
 30
 368.2 
  0
VERTEX
  8
0
 10
-30 
 20
 14.8176 
 30
 384 
  0
VERTEX
  8
0
 10
 30 
 20
 14.8176 
 30
 384 
  0
VERTEX
  8
0
 10
 32.2695851585022 
 20
 12.7942724295404 
 30
 368.2 
  0
VERTEX
  8
0
 10
 34.3730936774419 
 20
 10.8071623278525 
 30
 352.1 
  0
VERTEX
  8
0
 10
 36.053 
 20
 8.9712 
 30
 336 
  0
VERTEX
  8
0
 10
 37.8302683651213 
 20
 4.73612649384662 
 30
 288.2 
  0
VERTEX
  8
0
 10
 36.6136801253379 
 20
 1.97349192203549 
 30
 240.1 
  0
VERTEX
  8
0
 10
 35.063 
 20
 .1872 
 30
 192 
  0
VERTEX
  8
0
 10
 34.6540136377216 
 20
-.595705969803428 
 30
 160.2 
  0
VERTEX
  8
0
 10
 32.9687534557023 
 20
-.614320359834299 
 30
 128.1 
  0
VERTEX
  8
0
 10
 27.672 
 20
 .72 
 30
 96 
  0
VERTEX
  8
0
 10
 20.3718686763237 
 20
 2.82668158771547 
 30
 72.2 
  0
VERTEX
  8
0
 10
 10.75241310823 
 20
 5.68304787185153 
 30
 48.1 
  0
VERTEX
  8
0
 10
 .01 
 20
 8.904 
 30
 24 
  0
VERTEX
  8
0
 10
-.01 
 20
 8.904 
 30
 24 
  0
SEQEND
  0
POLYLINE
  8
0
 66
     1
 10
0.0
 20
0.0
 30
0.0
  0
VERTEX
  8
0
 10
-7.574 
 20
 33.2709 
 30
 3 
  0
VERTEX
  8
0
 10
-22.1277828587379 
 20
 26.8359835683024 
 30
 34.1 
  0
VERTEX
  8
0
 10
-34.799978820996 
 20
 21.0745254461832 
 30
 65.2 
  0
VERTEX
  8
0
 10
-43.647 
 20
 16.694 
 30
 96 
  0
VERTEX
  8
0
 10
-47.7044552796113 
 20
 14.0053069341498 
 30
 128.1 
  0
VERTEX
  8
0
 10
-48.1222973528234 
 20
 12.7920408411182 
 30
 160.2 
  0
VERTEX
  8
0
 10
-47.262 
 20
 12.3863 
 30
 192 
  0
VERTEX
  8
0
 10
-46.8826297606351 
 20
 12.2919066888322 
 30
 240.1 
  0
VERTEX
  8
0
 10
-46.1268077661155 
 20
 13.0616170390673 
 30
 288.2 
  0
VERTEX
  8
0
 10
-42.305 
 20
 15.2225 
 30
 336 
  0
VERTEX
  8
0
 10
-39.9111602656791 
 20
 16.3422303218916 
 30
 352.1 
  0
VERTEX
  8
0
 10
-37.0841873910002 
 20
 17.6073784166903 
 30
 368.2 
  0
VERTEX
  8
0
 10
-34.1 
 20
 18.91942 
 30
 384 
  0
VERTEX
  8
0
 10
 34.1 
 20
 18.91942 
 30
 384 
  0
VERTEX
  8
0
 10
 37.0841873910002 
 20
 17.6073784166903 
 30
 368.2 
  0
VERTEX
  8
0
 10
 39.9111602656791 
 20
 16.3422303218916 
 30
 352.1 
  0
VERTEX
  8
0
 10
 42.305 
 20
 15.2225 
 30
 336 
  0
VERTEX
  8
0
 10
 46.1268077661155 
 20
 13.0616170390673 
 30
 288.2 
  0
VERTEX
  8
0
 10
 46.8826297606351 
 20
 12.2919066888322 
 30
 240.1 
  0
VERTEX
  8
0
 10
 47.262 
 20
 12.3863 
 30
 192 
  0
VERTEX
  8
0
 10
 48.1222973528234 
 20
 12.7920408411182 
 30
 160.2 
  0
VERTEX
  8
0
 10
 47.7044552796113 
 20
 14.0053069341498 
 30
 128.1 
  0
VERTEX
  8
0
 10
 43.647 
 20
 16.694 
 30
 96 
  0
VERTEX
  8
0
 10
 34.799978820996 
 20
 21.0745254461832 
 30
 65.2 
  0
VERTEX
  8
0
 10
 22.1277828587379 
 20
 26.8359835683024 
 30
 34.1 
  0
VERTEX
  8
0
 10
 7.574 
 20
 33.2709 
 30
 3 
  0
VERTEX
  8
0
 10
-7.574 
 20
 33.2709 
 30
 3 
  0
SEQEND
  0
POLYLINE
  8
0
 66
     1
 10
0.0
 20
0.0
 30
0.0
  0
VERTEX
  8
0
 10
-9.321 
 20
 54.2314 
 30
 0 
  0
VERTEX
  8
0
 10
-23.990181133796 
 20
 48.8690151589875 
 30
 32.1 
  0
VERTEX
  8
0
 10
-36.7469503530173 
 20
 44.0540040480193 
 30
 64.2 
  0
VERTEX
  8
0
 10
-45.619 
 20
 40.36176 
 30
 96 
  0
VERTEX
  8
0
 10
-49.5677751161439 
 20
 38.0881369315943 
 30
 128.1 
  0
VERTEX
  8
0
 10
-50.0343363342057 
 20
 36.9332945549232 
 30
 160.2 
  0
VERTEX
  8
0
 10
-49.262 
 20
 36.383 
 30
 192 
  0
VERTEX
  8
0
 10
-48.9155544198082 
 20
 35.9466317743773 
 30
 240.1 
  0
VERTEX
  8
0
 10
-48.1034533785218 
 20
 36.3444697492576 
 30
 288.2 
  0
VERTEX
  8
0
 10
-44.219 
 20
 38.19744 
 30
 336 
  0
VERTEX
  8
0
 10
-41.8158165371991 
 20
 39.2416804120451 
 30
 352.1 
  0
VERTEX
  8
0
 10
-38.9851192916268 
 20
 40.4428161356853 
 30
 368.2 
  0
VERTEX
  8
0
 10
-36 
 20
 41.6976 
 30
 384 
  0
VERTEX
  8
0
 10
 36 
 20
 41.6976 
 30
 384 
  0
VERTEX
  8
0
 10
 38.9851192916268 
 20
 40.4428161356853 
 30
 368.2 
  0
VERTEX
  8
0
 10
 41.8158165371991 
 20
 39.2416804120451 
 30
 352.1 
  0
VERTEX
  8
0
 10
 44.219 
 20
 38.19744 
 30
 336 
  0
VERTEX
  8
0
 10
 48.1034533785218 
 20
 36.3444697492576 
 30
 288.2 
  0
VERTEX
  8
0
 10
 48.9155544198082 
 20
 35.9466317743773 
 30
 240.1 
  0
VERTEX
  8
0
 10
 49.262 
 20
 36.383 
 30
 192 
  0
VERTEX
  8
0
 10
 50.0343363342057 
 20
 36.9332945549232 
 30
 160.2 
  0
VERTEX
  8
0
 10
 49.5677751161439 
 20
 38.0881369315943 
 30
 128.1 
  0
VERTEX
  8
0
 10
 45.619 
 20
 40.36176 
 30
 96 
  0
VERTEX
  8
0
 10
 36.7469503530173 
 20
 44.0540040480193 
 30
 64.2 
  0
VERTEX
  8
0
 10
 23.990181133796 
 20
 48.8690151589875 
 30
 32.1 
  0
VERTEX
  8
0
 10
 9.321 
 20
 54.2314 
 30
 0 
  0
VERTEX
  8
0
 10
-9.321 
 20
 54.2314 
 30
 0 
  0
SEQEND
  0
POLYLINE
  8
0
 66
     1
 10
0.0
 20
0.0
 30
0.0
  0
VERTEX
  8
0
 10
 100.068672668412 
 20
 54.2314 
 30
-9.321 
  0
VERTEX
  8
0
 10
 103.068672668412 
 20
 33.2709 
 30
-7.574 
  0
VERTEX
  8
0
 10
 124.068672668412 
 20
 8.904 
 30
-.01 
  0
VERTEX
  8
0
 10
 124.068672668412 
 20
 8.904 
 30
 .01 
  0
VERTEX
  8
0
 10
 103.068672668412 
 20
 33.2709 
 30
 7.574 
  0
VERTEX
  8
0
 10
 100.068672668412 
 20
 54.2314 
 30
 9.321 
  0
SEQEND
  0
POLYLINE
  8
0
 66
     1
 10
0.0
 20
0.0
 30
0.0
  0
VERTEX
  8
0
 10
 196.068672668412 
 20
 40.36176 
 30
-45.619 
  0
VERTEX
  8
0
 10
 196.068672668412 
 20
 16.694 
 30
-43.647 
  0
VERTEX
  8
0
 10
 196.068672668412 
 20
 .72 
 30
-27.672 
  0
VERTEX
  8
0
 10
 196.068672668412 
 20
 .72 
 30
 27.672 
  0
VERTEX
  8
0
 10
 196.068672668412 
 20
 16.694 
 30
 43.647 
  0
VERTEX
  8
0
 10
 196.068672668412 
 20
 40.36176 
 30
 45.619 
  0
SEQEND
  0
POLYLINE
  8
0
 66
     1
 10
0.0
 20
0.0
 30
0.0
  0
VERTEX
  8
0
 10
 292.068672668412 
 20
 36.383 
 30
-49.262 
  0
VERTEX
  8
0
 10
 292.068672668412 
 20
 12.3863 
 30
-47.262 
  0
VERTEX
  8
0
 10
 292.068672668412 
 20
 .1872 
 30
-35.063 
  0
VERTEX
  8
0
 10
 292.068672668412 
 20
 .1872 
 30
 35.063 
  0
VERTEX
  8
0
 10
 292.068672668412 
 20
 12.3863 
 30
 47.262 
  0
VERTEX
  8
0
 10
 292.068672668412 
 20
 36.383 
 30
 49.262 
  0
SEQEND
  0
POLYLINE
  8
0
 66
     1
 10
0.0
 20
0.0
 30
0.0
  0
VERTEX
  8
0
 10
 436.068672668412 
 20
 38.19744 
 30
-44.219 
  0
VERTEX
  8
0
 10
 436.068672668412 
 20
 15.2225 
 30
-42.305 
  0
VERTEX
  8
0
 10
 436.068672668412 
 20
 8.9712 
 30
-36.053 
  0
VERTEX
  8
0
 10
 436.068672668412 
 20
 8.9712 
 30
 36.053 
  0
VERTEX
  8
0
 10
 436.068672668412 
 20
 15.2225 
 30
 42.305 
  0
VERTEX
  8
0
 10
 436.068672668412 
 20
 38.19744 
 30
 44.219 
  0
SEQEND
  0
POLYLINE
  8
0
 66
     1
 10
0.0
 20
0.0
 30
0.0
  0
VERTEX
  8
0
 10
 484.068672668412 
 20
 41.6976 
 30
-36 
  0
VERTEX
  8
0
 10
 484.068672668412 
 20
 18.91942 
 30
-34.1 
  0
VERTEX
  8
0
 10
 484.068672668412 
 20
 14.8176 
 30
-30 
  0
VERTEX
  8
0
 10
 484.068672668412 
 20
 14.8176 
 30
 30 
  0
VERTEX
  8
0
 10
 484.068672668412 
 20
 18.91942 
 30
 34.1 
  0
VERTEX
  8
0
 10
 484.068672668412 
 20
 41.6976 
 30
 36 
  0
SEQEND
  0
POLYLINE
  8
0
 66
     1
 10
0.0
 20
0.0
 30
0.0
  0
VERTEX
  8
0
 10
 124.068672668412 
 20
 8.904 
 30
-.01 
  0
VERTEX
  8
0
 10
 148.168672668412 
 20
 5.68304787185153 
 30
-10.75241310823 
  0
VERTEX
  8
0
 10
 172.268672668412 
 20
 2.82668158771547 
 30
-20.3718686763237 
  0
VERTEX
  8
0
 10
 196.068672668412 
 20
 .72 
 30
-27.672 
  0
VERTEX
  8
0
 10
 228.168672668412 
 20
-.614320359834299 
 30
-32.9687534557023 
  0
VERTEX
  8
0
 10
 260.268672668412 
 20
-.595705969803428 
 30
-34.6540136377216 
  0
VERTEX
  8
0
 10
 292.068672668412 
 20
 .1872 
 30
-35.063 
  0
VERTEX
  8
0
 10
 340.168672668412 
 20
 1.97349192203549 
 30
-36.6136801253379 
  0
VERTEX
  8
0
 10
 388.268672668412 
 20
 4.73612649384662 
 30
-37.8302683651213 
  0
VERTEX
  8
0
 10
 436.068672668412 
 20
 8.9712 
 30
-36.053 
  0
VERTEX
  8
0
 10
 452.168672668412 
 20
 10.8071623278525 
 30
-34.3730936774419 
  0
VERTEX
  8
0
 10
 468.268672668412 
 20
 12.7942724295404 
 30
-32.2695851585022 
  0
VERTEX
  8
0
 10
 484.068672668412 
 20
 14.8176 
 30
-30 
  0
VERTEX
  8
0
 10
 484.068672668412 
 20
 14.8176 
 30
 30 
  0
VERTEX
  8
0
 10
 468.268672668412 
 20
 12.7942724295404 
 30
 32.2695851585022 
  0
VERTEX
  8
0
 10
 452.168672668412 
 20
 10.8071623278525 
 30
 34.3730936774419 
  0
VERTEX
  8
0
 10
 436.068672668412 
 20
 8.9712 
 30
 36.053 
  0
VERTEX
  8
0
 10
 388.268672668412 
 20
 4.73612649384662 
 30
 37.8302683651213 
  0
VERTEX
  8
0
 10
 340.168672668412 
 20
 1.97349192203549 
 30
 36.6136801253379 
  0
VERTEX
  8
0
 10
 292.068672668412 
 20
 .1872 
 30
 35.063 
  0
VERTEX
  8
0
 10
 260.268672668412 
 20
-.595705969803428 
 30
 34.6540136377216 
  0
VERTEX
  8
0
 10
 228.168672668412 
 20
-.614320359834299 
 30
 32.9687534557023 
  0
VERTEX
  8
0
 10
 196.068672668412 
 20
 .72 
 30
 27.672 
  0
VERTEX
  8
0
 10
 172.268672668412 
 20
 2.82668158771547 
 30
 20.3718686763237 
  0
VERTEX
  8
0
 10
 148.168672668412 
 20
 5.68304787185153 
 30
 10.75241310823 
  0
VERTEX
  8
0
 10
 124.068672668412 
 20
 8.904 
 30
 .01 
  0
VERTEX
  8
0
 10
 124.068672668412 
 20
 8.904 
 30
-.01 
  0
SEQEND
  0
POLYLINE
  8
0
 66
     1
 10
0.0
 20
0.0
 30
0.0
  0
VERTEX
  8
0
 10
 103.068672668412 
 20
 33.2709 
 30
-7.574 
  0
VERTEX
  8
0
 10
 134.168672668412 
 20
 26.8359835683024 
 30
-22.1277828587379 
  0
VERTEX
  8
0
 10
 165.268672668412 
 20
 21.0745254461832 
 30
-34.799978820996 
  0
VERTEX
  8
0
 10
 196.068672668412 
 20
 16.694 
 30
-43.647 
  0
VERTEX
  8
0
 10
 228.168672668412 
 20
 14.0053069341498 
 30
-47.7044552796113 
  0
VERTEX
  8
0
 10
 260.268672668412 
 20
 12.7920408411182 
 30
-48.1222973528234 
  0
VERTEX
  8
0
 10
 292.068672668412 
 20
 12.3863 
 30
-47.262 
  0
VERTEX
  8
0
 10
 340.168672668412 
 20
 12.2919066888322 
 30
-46.8826297606351 
  0
VERTEX
  8
0
 10
 388.268672668412 
 20
 13.0616170390673 
 30
-46.1268077661155 
  0
VERTEX
  8
0
 10
 436.068672668412 
 20
 15.2225 
 30
-42.305 
  0
VERTEX
  8
0
 10
 452.168672668412 
 20
 16.3422303218916 
 30
-39.9111602656791 
  0
VERTEX
  8
0
 10
 468.268672668412 
 20
 17.6073784166903 
 30
-37.0841873910002 
  0
VERTEX
  8
0
 10
 484.068672668412 
 20
 18.91942 
 30
-34.1 
  0
VERTEX
  8
0
 10
 484.068672668412 
 20
 18.91942 
 30
 34.1 
  0
VERTEX
  8
0
 10
 468.268672668412 
 20
 17.6073784166903 
 30
 37.0841873910002 
  0
VERTEX
  8
0
 10
 452.168672668412 
 20
 16.3422303218916 
 30
 39.9111602656791 
  0
VERTEX
  8
0
 10
 436.068672668412 
 20
 15.2225 
 30
 42.305 
  0
VERTEX
  8
0
 10
 388.268672668412 
 20
 13.0616170390673 
 30
 46.1268077661155 
  0
VERTEX
  8
0
 10
 340.168672668412 
 20
 12.2919066888322 
 30
 46.8826297606351 
  0
VERTEX
  8
0
 10
 292.068672668412 
 20
 12.3863 
 30
 47.262 
  0
VERTEX
  8
0
 10
 260.268672668412 
 20
 12.7920408411182 
 30
 48.1222973528234 
  0
VERTEX
  8
0
 10
 228.168672668412 
 20
 14.0053069341498 
 30
 47.7044552796113 
  0
VERTEX
  8
0
 10
 196.068672668412 
 20
 16.694 
 30
 43.647 
  0
VERTEX
  8
0
 10
 165.268672668412 
 20
 21.0745254461832 
 30
 34.799978820996 
  0
VERTEX
  8
0
 10
 134.168672668412 
 20
 26.8359835683024 
 30
 22.1277828587379 
  0
VERTEX
  8
0
 10
 103.068672668412 
 20
 33.2709 
 30
 7.574 
  0
VERTEX
  8
0
 10
 103.068672668412 
 20
 33.2709 
 30
-7.574 
  0
SEQEND
  0
POLYLINE
  8
0
 66
     1
 10
0.0
 20
0.0
 30
0.0
  0
VERTEX
  8
0
 10
 100.068672668412 
 20
 54.2314 
 30
-9.321 
  0
VERTEX
  8
0
 10
 132.168672668412 
 20
 48.8690151589875 
 30
-23.990181133796 
  0
VERTEX
  8
0
 10
 164.268672668412 
 20
 44.0540040480193 
 30
-36.7469503530173 
  0
VERTEX
  8
0
 10
 196.068672668412 
 20
 40.36176 
 30
-45.619 
  0
VERTEX
  8
0
 10
 228.168672668412 
 20
 38.0881369315943 
 30
-49.5677751161439 
  0
VERTEX
  8
0
 10
 260.268672668412 
 20
 36.9332945549232 
 30
-50.0343363342057 
  0
VERTEX
  8
0
 10
 292.068672668412 
 20
 36.383 
 30
-49.262 
  0
VERTEX
  8
0
 10
 340.168672668412 
 20
 35.9466317743773 
 30
-48.9155544198082 
  0
VERTEX
  8
0
 10
 388.268672668412 
 20
 36.3444697492576 
 30
-48.1034533785218 
  0
VERTEX
  8
0
 10
 436.068672668412 
 20
 38.19744 
 30
-44.219 
  0
VERTEX
  8
0
 10
 452.168672668412 
 20
 39.2416804120451 
 30
-41.8158165371991 
  0
VERTEX
  8
0
 10
 468.268672668412 
 20
 40.4428161356853 
 30
-38.9851192916268 
  0
VERTEX
  8
0
 10
 484.068672668412 
 20
 41.6976 
 30
-36 
  0
VERTEX
  8
0
 10
 484.068672668412 
 20
 41.6976 
 30
 36 
  0
VERTEX
  8
0
 10
 468.268672668412 
 20
 40.4428161356853 
 30
 38.9851192916268 
  0
VERTEX
  8
0
 10
 452.168672668412 
 20
 39.2416804120451 
 30
 41.8158165371991 
  0
VERTEX
  8
0
 10
 436.068672668412 
 20
 38.19744 
 30
 44.219 
  0
VERTEX
  8
0
 10
 388.268672668412 
 20
 36.3444697492576 
 30
 48.1034533785218 
  0
VERTEX
  8
0
 10
 340.168672668412 
 20
 35.9466317743773 
 30
 48.9155544198082 
  0
VERTEX
  8
0
 10
 292.068672668412 
 20
 36.383 
 30
 49.262 
  0
VERTEX
  8
0
 10
 260.268672668412 
 20
 36.9332945549232 
 30
 50.0343363342057 
  0
VERTEX
  8
0
 10
 228.168672668412 
 20
 38.0881369315943 
 30
 49.5677751161439 
  0
VERTEX
  8
0
 10
 196.068672668412 
 20
 40.36176 
 30
 45.619 
  0
VERTEX
  8
0
 10
 164.268672668412 
 20
 44.0540040480193 
 30
 36.7469503530173 
  0
VERTEX
  8
0
 10
 132.168672668412 
 20
 48.8690151589875 
 30
 23.990181133796 
  0
VERTEX
  8
0
 10
 100.068672668412 
 20
 54.2314 
 30
 9.321 
  0
VERTEX
  8
0
 10
 100.068672668412 
 20
 54.2314 
 30
-9.321 
  0
SEQEND
  0
POLYLINE
  8
0
 66
     1
 10
0.0
 20
0.0
 30
0.0
  0
VERTEX
  8
0
 10
 100.068672668412 
 20
 140.782009002617 
 30
 54.2314 
  0
VERTEX
  8
0
 10
 103.068672668412 
 20
 142.529009002617 
 30
 33.2709 
  0
VERTEX
  8
0
 10
 124.068672668412 
 20
 150.093009002617 
 30
 8.904 
  0
VERTEX
  8
0
 10
 124.068672668412 
 20
 150.113009002617 
 30
 8.904 
  0
VERTEX
  8
0
 10
 103.068672668412 
 20
 157.677009002617 
 30
 33.2709 
  0
VERTEX
  8
0
 10
 100.068672668412 
 20
 159.424009002617 
 30
 54.2314 
  0
SEQEND
  0
POLYLINE
  8
0
 66
     1
 10
0.0
 20
0.0
 30
0.0
  0
VERTEX
  8
0
 10
 196.068672668412 
 20
 104.484009002617 
 30
 40.36176 
  0
VERTEX
  8
0
 10
 196.068672668412 
 20
 106.456009002617 
 30
 16.694 
  0
VERTEX
  8
0
 10
 196.068672668412 
 20
 122.431009002617 
 30
 .72 
  0
VERTEX
  8
0
 10
 196.068672668412 
 20
 177.775009002617 
 30
 .72 
  0
VERTEX
  8
0
 10
 196.068672668412 
 20
 193.750009002617 
 30
 16.694 
  0
VERTEX
  8
0
 10
 196.068672668412 
 20
 195.722009002617 
 30
 40.36176 
  0
SEQEND
  0
POLYLINE
  8
0
 66
     1
 10
0.0
 20
0.0
 30
0.0
  0
VERTEX
  8
0
 10
 292.068672668412 
 20
 100.841009002617 
 30
 36.383 
  0
VERTEX
  8
0
 10
 292.068672668412 
 20
 102.841009002617 
 30
 12.3863 
  0
VERTEX
  8
0
 10
 292.068672668412 
 20
 115.040009002617 
 30
 .1872 
  0
VERTEX
  8
0
 10
 292.068672668412 
 20
 185.166009002617 
 30
 .1872 
  0
VERTEX
  8
0
 10
 292.068672668412 
 20
 197.365009002617 
 30
 12.3863 
  0
VERTEX
  8
0
 10
 292.068672668412 
 20
 199.365009002617 
 30
 36.383 
  0
SEQEND
  0
POLYLINE
  8
0
 66
     1
 10
0.0
 20
0.0
 30
0.0
  0
VERTEX
  8
0
 10
 436.068672668412 
 20
 105.884009002617 
 30
 38.19744 
  0
VERTEX
  8
0
 10
 436.068672668412 
 20
 107.798009002617 
 30
 15.2225 
  0
VERTEX
  8
0
 10
 436.068672668412 
 20
 114.050009002617 
 30
 8.9712 
  0
VERTEX
  8
0
 10
 436.068672668412 
 20
 186.156009002617 
 30
 8.9712 
  0
VERTEX
  8
0
 10
 436.068672668412 
 20
 192.408009002617 
 30
 15.2225 
  0
VERTEX
  8
0
 10
 436.068672668412 
 20
 194.322009002617 
 30
 38.19744 
  0
SEQEND
  0
POLYLINE
  8
0
 66
     1
 10
0.0
 20
0.0
 30
0.0
  0
VERTEX
  8
0
 10
 484.068672668412 
 20
 114.103009002617 
 30
 41.6976 
  0
VERTEX
  8
0
 10
 484.068672668412 
 20
 116.003009002617 
 30
 18.91942 
  0
VERTEX
  8
0
 10
 484.068672668412 
 20
 120.103009002617 
 30
 14.8176 
  0
VERTEX
  8
0
 10
 484.068672668412 
 20
 180.103009002617 
 30
 14.8176 
  0
VERTEX
  8
0
 10
 484.068672668412 
 20
 184.203009002617 
 30
 18.91942 
  0
VERTEX
  8
0
 10
 484.068672668412 
 20
 186.103009002617 
 30
 41.6976 
  0
SEQEND
  0
POLYLINE
  8
0
 66
     1
 10
0.0
 20
0.0
 30
0.0
  0
VERTEX
  8
0
 10
 124.068672668412 
 20
 150.093009002617 
 30
 8.904 
  0
VERTEX
  8
0
 10
 148.168672668412 
 20
 139.350595894387 
 30
 5.68304787185153 
  0
VERTEX
  8
0
 10
 172.268672668412 
 20
 129.731140326294 
 30
 2.82668158771547 
  0
VERTEX
  8
0
 10
 196.068672668412 
 20
 122.431009002617 
 30
 .72 
  0
VERTEX
  8
0
 10
 228.168672668412 
 20
 117.134255546915 
 30
-.614320359834299 
  0
VERTEX
  8
0
 10
 260.268672668412 
 20
 115.448995364896 
 30
-.595705969803428 
  0
VERTEX
  8
0
 10
 292.068672668412 
 20
 115.040009002617 
 30
 .1872 
  0
VERTEX
  8
0
 10
 340.168672668412 
 20
 113.489328877279 
 30
 1.97349192203549 
  0
VERTEX
  8
0
 10
 388.268672668412 
 20
 112.272740637496 
 30
 4.73612649384662 
  0
VERTEX
  8
0
 10
 436.068672668412 
 20
 114.050009002617 
 30
 8.9712 
  0
VERTEX
  8
0
 10
 452.168672668412 
 20
 115.729915325175 
 30
 10.8071623278525 
  0
VERTEX
  8
0
 10
 468.268672668412 
 20
 117.833423844115 
 30
 12.7942724295404 
  0
VERTEX
  8
0
 10
 484.068672668412 
 20
 120.103009002617 
 30
 14.8176 
  0
VERTEX
  8
0
 10
 484.068672668412 
 20
 180.103009002617 
 30
 14.8176 
  0
VERTEX
  8
0
 10
 468.268672668412 
 20
 182.372594161119 
 30
 12.7942724295404 
  0
VERTEX
  8
0
 10
 452.168672668412 
 20
 184.476102680059 
 30
 10.8071623278525 
  0
VERTEX
  8
0
 10
 436.068672668412 
 20
 186.156009002617 
 30
 8.9712 
  0
VERTEX
  8
0
 10
 388.268672668412 
 20
 187.933277367739 
 30
 4.73612649384662 
  0
VERTEX
  8
0
 10
 340.168672668412 
 20
 186.716689127955 
 30
 1.97349192203549 
  0
VERTEX
  8
0
 10
 292.068672668412 
 20
 185.166009002617 
 30
 .1872 
  0
VERTEX
  8
0
 10
 260.268672668412 
 20
 184.757022640339 
 30
-.595705969803428 
  0
VERTEX
  8
0
 10
 228.168672668412 
 20
 183.07176245832 
 30
-.614320359834299 
  0
VERTEX
  8
0
 10
 196.068672668412 
 20
 177.775009002617 
 30
 .72 
  0
VERTEX
  8
0
 10
 172.268672668412 
 20
 170.474877678941 
 30
 2.82668158771547 
  0
VERTEX
  8
0
 10
 148.168672668412 
 20
 160.855422110847 
 30
 5.68304787185153 
  0
VERTEX
  8
0
 10
 124.068672668412 
 20
 150.113009002617 
 30
 8.904 
  0
VERTEX
  8
0
 10
 124.068672668412 
 20
 150.093009002617 
 30
 8.904 
  0
SEQEND
  0
POLYLINE
  8
0
 66
     1
 10
0.0
 20
0.0
 30
0.0
  0
VERTEX
  8
0
 10
 103.068672668412 
 20
 142.529009002617 
 30
 33.2709 
  0
VERTEX
  8
0
 10
 134.168672668412 
 20
 127.975226143879 
 30
 26.8359835683024 
  0
VERTEX
  8
0
 10
 165.268672668412 
 20
 115.303030181621 
 30
 21.0745254461832 
  0
VERTEX
  8
0
 10
 196.068672668412 
 20
 106.456009002617 
 30
 16.694 
  0
VERTEX
  8
0
 10
 228.168672668412 
 20
 102.398553723006 
 30
 14.0053069341498 
  0
VERTEX
  8
0
 10
 260.268672668412 
 20
 101.980711649794 
 30
 12.7920408411182 
  0
VERTEX
  8
0
 10
 292.068672668412 
 20
 102.841009002617 
 30
 12.3863 
  0
VERTEX
  8
0
 10
 340.168672668412 
 20
 103.220379241982 
 30
 12.2919066888322 
  0
VERTEX
  8
0
 10
 388.268672668412 
 20
 103.976201236502 
 30
 13.0616170390673 
  0
VERTEX
  8
0
 10
 436.068672668412 
 20
 107.798009002617 
 30
 15.2225 
  0
VERTEX
  8
0
 10
 452.168672668412 
 20
 110.191848736938 
 30
 16.3422303218916 
  0
VERTEX
  8
0
 10
 468.268672668412 
 20
 113.018821611617 
 30
 17.6073784166903 
  0
VERTEX
  8
0
 10
 484.068672668412 
 20
 116.003009002617 
 30
 18.91942 
  0
VERTEX
  8
0
 10
 484.068672668412 
 20
 184.203009002617 
 30
 18.91942 
  0
VERTEX
  8
0
 10
 468.268672668412 
 20
 187.187196393618 
 30
 17.6073784166903 
  0
VERTEX
  8
0
 10
 452.168672668412 
 20
 190.014169268296 
 30
 16.3422303218916 
  0
VERTEX
  8
0
 10
 436.068672668412 
 20
 192.408009002617 
 30
 15.2225 
  0
VERTEX
  8
0
 10
 388.268672668412 
 20
 196.229816768733 
 30
 13.0616170390673 
  0
VERTEX
  8
0
 10
 340.168672668412 
 20
 196.985638763252 
 30
 12.2919066888322 
  0
VERTEX
  8
0
 10
 292.068672668412 
 20
 197.365009002617 
 30
 12.3863 
  0
VERTEX
  8
0
 10
 260.268672668412 
 20
 198.225306355441 
 30
 12.7920408411182 
  0
VERTEX
  8
0
 10
 228.168672668412 
 20
 197.807464282229 
 30
 14.0053069341498 
  0
VERTEX
  8
0
 10
 196.068672668412 
 20
 193.750009002617 
 30
 16.694 
  0
VERTEX
  8
0
 10
 165.268672668412 
 20
 184.902987823613 
 30
 21.0745254461832 
  0
VERTEX
  8
0
 10
 134.168672668412 
 20
 172.230791861355 
 30
 26.8359835683024 
  0
VERTEX
  8
0
 10
 103.068672668412 
 20
 157.677009002617 
 30
 33.2709 
  0
VERTEX
  8
0
 10
 103.068672668412 
 20
 142.529009002617 
 30
 33.2709 
  0
SEQEND
  0
POLYLINE
  8
0
 66
     1
 10
0.0
 20
0.0
 30
0.0
  0
VERTEX
  8
0
 10
 100.068672668412 
 20
 140.782009002617 
 30
 54.2314 
  0
VERTEX
  8
0
 10
 132.168672668412 
 20
 126.112827868821 
 30
 48.8690151589875 
  0
VERTEX
  8
0
 10
 164.268672668412 
 20
 113.3560586496 
 30
 44.0540040480193 
  0
VERTEX
  8
0
 10
 196.068672668412 
 20
 104.484009002617 
 30
 40.36176 
  0
VERTEX
  8
0
 10
 228.168672668412 
 20
 100.535233886473 
 30
 38.0881369315943 
  0
VERTEX
  8
0
 10
 260.268672668412 
 20
 100.068672668412 
 30
 36.9332945549232 
  0
VERTEX
  8
0
 10
 292.068672668412 
 20
 100.841009002617 
 30
 36.383 
  0
VERTEX
  8
0
 10
 340.168672668412 
 20
 101.187454582809 
 30
 35.9466317743773 
  0
VERTEX
  8
0
 10
 388.268672668412 
 20
 101.999555624095 
 30
 36.3444697492576 
  0
VERTEX
  8
0
 10
 436.068672668412 
 20
 105.884009002617 
 30
 38.19744 
  0
VERTEX
  8
0
 10
 452.168672668412 
 20
 108.287192465418 
 30
 39.2416804120451 
  0
VERTEX
  8
0
 10
 468.268672668412 
 20
 111.11788971099 
 30
 40.4428161356853 
  0
VERTEX
  8
0
 10
 484.068672668412 
 20
 114.103009002617 
 30
 41.6976 
  0
VERTEX
  8
0
 10
 484.068672668412 
 20
 186.103009002617 
 30
 41.6976 
  0
VERTEX
  8
0
 10
 468.268672668412 
 20
 189.088128294244 
 30
 40.4428161356853 
  0
VERTEX
  8
0
 10
 452.168672668412 
 20
 191.918825539816 
 30
 39.2416804120451 
  0
VERTEX
  8
0
 10
 436.068672668412 
 20
 194.322009002617 
 30
 38.19744 
  0
VERTEX
  8
0
 10
 388.268672668412 
 20
 198.206462381139 
 30
 36.3444697492576 
  0
VERTEX
  8
0
 10
 340.168672668412 
 20
 199.018563422426 
 30
 35.9466317743773 
  0
VERTEX
  8
0
 10
 292.068672668412 
 20
 199.365009002617 
 30
 36.383 
  0
VERTEX
  8
0
 10
 260.268672668412 
 20
 200.137345336823 
 30
 36.9332945549232 
  0
VERTEX
  8
0
 10
 228.168672668412 
 20
 199.670784118761 
 30
 38.0881369315943 
  0
VERTEX
  8
0
 10
 196.068672668412 
 20
 195.722009002617 
 30
 40.36176 
  0
VERTEX
  8
0
 10
 164.268672668412 
 20
 186.849959355635 
 30
 44.0540040480193 
  0
VERTEX
  8
0
 10
 132.168672668412 
 20
 174.093190136413 
 30
 48.8690151589875 
  0
VERTEX
  8
0
 10
 100.068672668412 
 20
 159.424009002617 
 30
 54.2314 
  0
VERTEX
  8
0
 10
 100.068672668412 
 20
 140.782009002617 
 30
 54.2314 
  0
SEQEND
  0
ENDSEC
  0
EOF
